Friday, June 27, 2008

How to Play Troubadour by George Strait

The video below is designed to teach people how to play Troubadour by George Strait, on the Acoustic guitar.

Download MP3 of Troubadour Here!



Strum Pattern: ddudduudddu

Thursday, June 26, 2008

How to Play Love Don't Live Here Anymore by Lady Antebellum

Download mp3 of Love Don't Live Here Anymore by clicking here



Intro:
e|------3------3------3-------------|
B|------3------3------3-------------|
G|----------------------------------|
D|----0------0------0------------0--|
A|----------------3------2-3-2-3----|
E|--3------1------------------------|


Wednesday, June 25, 2008

Tuesday, June 24, 2008

How to Play A Country Boy Can Survive by Hank Williams Jr.

 Country Boy Can Survive MP3 Download- Click Here!

The following is a video designed to show how the riffs in "A Country Boy Can Survive" are played.






D Am7 F D {drum}{Intro Fill----} D
e-2-2-2-----0-----5-5-52---2-2-----------------2------|
B-3-3-3-x-1-1-x-x-6-6-63-x-3-3-----------------3------|
G-2-2-2-x-0-0-x-x-5-5-52-x-2-2-----------------2------|
D-0-0--------2-----0-0---------0--3p2p0----------0----|
A-0-0--------0-----------------0-------3p2p0-----0----|
D-0-0--------------------------0-------------3h4-0----|

Fill

D C F D
e-----------------------------------|
B-----------------------------------|
G-----------------------------------|
D-----------------------------------|
A-3h5--5--5--5--5--5--3p0-----------|
D--------------------------b3-(0)---|

Strumming Pattern

(D) Down, Down, Down, Up
(Am7) Up, down, down, down, up
(F) Down, Down, Down, up
Related Posts Plugin for WordPress, Blogger...